  0
SECTION
  2
HEADER
  9
$ACADVER
  1
AC1014
  9
$HANDSEED
  5
FFFF
  9
$MEASUREMENT
 70
     1
  0
ENDSEC
  0
SECTION
  2
TABLES
  0
TABLE
  2
VPORT
  5
8
330
0
100
AcDbSymbolTable
 70
     4
  0
VPORT
  5
2E
330
8
100
AcDbSymbolTableRecord
100
AcDbViewportTableRecord
  2
*ACTIVE
 70
     0
 10
0.0
 20
0.0
 11
1.0
 21
1.0
 12
210.0
 22
148.5
 13
0.0
 23
0.0
 14
10.0
 24
10.0
 15
10.0
 25
10.0
 16
0.0
 26
0.0
 36
1.0
 17
0.0
 27
0.0
 37
0.0
 40
341.0
 41
1.24
 42
50.0
 43
0.0
 44
0.0
 50
0.0
 51
0.0
 71
     0
 72
   100
 73
     1
 74
     3
 75
     0
 76
     0
 77
     0
 78
     0
  0
ENDTAB
  0
TABLE
  2
LTYPE
  5
5
330
0
100
AcDbSymbolTable
 70
     1
  0
LTYPE
  5
14
330
5
100
AcDbSymbolTableRecord
100
AcDbLinetypeTableRecord
  2
BYBLOCK
 70
     0
  3

 72
    65
 73
     0
 40
0.0
  0
LTYPE
  5
15
330
5
100
AcDbSymbolTableRecord
100
AcDbLinetypeTableRecord
  2
BYLAYER
 70
     0
  3

 72
    65
 73
     0
 40
0.0
  0
LTYPE
  5
16
330
5
100
AcDbSymbolTableRecord
100
AcDbLinetypeTableRecord
  2
CONTINUOUS
 70
     0
  3
Solid line
 72
    65
 73
     0
 40
0.0
  0
ENDTAB
  0
TABLE
  2
LAYER
  5
2
100
AcDbSymbolTable
 70
2
  0
LAYER
  5
50
100
AcDbSymbolTableRecord
100
AcDbLayerTableRecord
  2
0
 70
0
  6
CONTINUOUS
  0
LAYER
  5
51
100
AcDbSymbolTableRecord
100
AcDbLayerTableRecord
  2
Layer_1
 70
0
  6
CONTINUOUS
  0
ENDTAB
  0
TABLE
  2
STYLE
  5
3
330
0
100
AcDbSymbolTable
 70
     1
  0
STYLE
  5
11
330
3
100
AcDbSymbolTableRecord
100
AcDbTextStyleTableRecord
  2
STANDARD
 70
     0
 40
0.0
 41
1.0
 50
0.0
 71
     0
 42
2.5
  3
txt
  4

  0
ENDTAB
  0
TABLE
  2
VIEW
  5
6
330
0
100
AcDbSymbolTable
 70
     0
  0
ENDTAB
  0
TABLE
  2
UCS
  5
7
330
0
100
AcDbSymbolTable
 70
     0
  0
ENDTAB
  0
TABLE
  2
APPID
  5
9
330
0
100
AcDbSymbolTable
 70
     2
  0
APPID
  5
12
330
9
100
AcDbSymbolTableRecord
100
AcDbRegAppTableRecord
  2
ACAD
 70
     0
  0
ENDTAB
  0
TABLE
  2
DIMSTYLE
  5
A
330
0
100
AcDbSymbolTable
 70
     1
  0
DIMSTYLE
105
27
330
A
100
AcDbSymbolTableRecord
100
AcDbDimStyleTableRecord
  2
ISO-25
 70
     0
  3

  4

  5

  6

  7

 40
1.0
 41
2.5
 42
0.625
 43
3.75
 44
1.25
 45
0.0
 46
0.0
 47
0.0
 48
0.0
140
2.5
141
2.5
142
0.0
143
0.03937007874016
144
1.0
145
0.0
146
1.0
147
0.625
 71
     0
 72
     0
 73
     0
 74
     0
 75
     0
 76
     0
 77
     1
 78
     8
170
     0
171
     3
172
     1
173
     0
174
     0
175
     0
176
     0
177
     0
178
     0
270
     2
271
     2
272
     2
273
     2
274
     3
340
11
275
     0
280
     0
281
     0
282
     0
283
     0
284
     8
285
     0
286
     0
287
     3
288
     0
  0
ENDTAB
  0
TABLE
  2
BLOCK_RECORD
  5
1
330
0
100
AcDbSymbolTable
 70
     1
  0
BLOCK_RECORD
  5
1F
330
1
100
AcDbSymbolTableRecord
100
AcDbBlockTableRecord
  2
*MODEL_SPACE
  0
BLOCK_RECORD
  5
1B
330
1
100
AcDbSymbolTableRecord
100
AcDbBlockTableRecord
  2
*PAPER_SPACE
  0
ENDTAB
  0
ENDSEC
  0
SECTION
  2
BLOCKS
  0
BLOCK
  5
20
330
1F
100
AcDbEntity
  8
0
100
AcDbBlockBegin
  2
*MODEL_SPACE
 70
     0
 10
0.0
 20
0.0
 30
0.0
  3
*MODEL_SPACE
  1

  0
ENDBLK
  5
21
330
1F
100
AcDbEntity
  8
0
100
AcDbBlockEnd
  0
BLOCK
  5
1C
330
1B
100
AcDbEntity
 67
     1
  8
0
100
AcDbBlockBegin
  2
*PAPER_SPACE
  1

  0
ENDBLK
  5
1D
330
1B
100
AcDbEntity
 67
     1
  8
0
100
AcDbBlockEnd
  0
ENDSEC
  0
SECTION
  2
ENTITIES
  0
SPLINE
  5
100
100
AcDbEntity
  8
Layer_1
 62
7
100
AcDbSpline
 70
8
 71
3
 72
8
 73
4
 74
0
 40
0
 40
0
 40
0
 40
0
 40
1
 40
1
 40
1
 40
1
 10
152.960468
 20
21.413266
 30
0.0
 10
168.423808
 20
24.690373
 30
0.0
 10
181.718500
 20
37.800303
 30
0.0
 10
185.394981
 20
53.397013
 30
0.0
  0
SPLINE
  5
101
100
AcDbEntity
  8
Layer_1
 62
7
100
AcDbSpline
 70
8
 71
3
 72
8
 73
4
 74
0
 40
0
 40
0
 40
0
 40
0
 40
1
 40
1
 40
1
 40
1
 10
185.394981
 20
53.397013
 30
0.0
 10
191.509541
 20
79.336895
 30
0.0
 10
173.348270
 20
105.661524
 30
0.0
 10
147.848778
 20
107.819994
 30
0.0
  0
SPLINE
  5
102
100
AcDbEntity
  8
Layer_1
 62
7
100
AcDbSpline
 70
8
 71
3
 72
8
 73
4
 74
0
 40
0
 40
0
 40
0
 40
0
 40
1
 40
1
 40
1
 40
1
 10
147.848778
 20
107.819994
 30
0.0
 10
136.050467
 20
108.818669
 30
0.0
 10
124.056084
 20
104.062018
 30
0.0
 10
115.403437
 20
94.953050
 30
0.0
  0
SPLINE
  5
103
100
AcDbEntity
  8
Layer_1
 62
7
100
AcDbSpline
 70
8
 71
3
 72
8
 73
4
 74
0
 40
0
 40
0
 40
0
 40
0
 40
1
 40
1
 40
1
 40
1
 10
115.403437
 20
94.953050
 30
0.0
 10
102.072490
 20
80.919025
 30
0.0
 10
98.847909
 20
61.753410
 30
0.0
 10
106.979632
 20
44.885390
 30
0.0
  0
SPLINE
  5
104
100
AcDbEntity
  8
Layer_1
 62
7
100
AcDbSpline
 70
8
 71
3
 72
8
 73
4
 74
0
 40
0
 40
0
 40
0
 40
0
 40
1
 40
1
 40
1
 40
1
 10
106.979632
 20
44.885390
 30
0.0
 10
115.757825
 20
26.676383
 30
0.0
 10
133.957250
 20
17.385998
 30
0.0
 10
152.960468
 20
21.413266
 30
0.0
  0
LWPOLYLINE
  5
105
100
AcDbEntity
  8
Layer_1
 62
7
100
AcDbPolyline
 90
8
 70
1
 10
8.047931
 20
99.069694
 30
0.0
 10
8.047931
 20
189.819754
 30
0.0
 10
113.048016
 20
189.819754
 30
0.0
 10
218.048072
 20
189.819754
 30
0.0
 10
218.048072
 20
99.069694
 30
0.0
 10
218.048072
 20
8.319663
 30
0.0
 10
113.048016
 20
8.319663
 30
0.0
 10
8.047931
 20
8.319663
 30
0.0
  0
SPLINE
  5
106
100
AcDbEntity
  8
Layer_1
 62
7
100
AcDbSpline
 70
8
 71
3
 72
8
 73
4
 74
0
 40
0
 40
0
 40
0
 40
0
 40
1
 40
1
 40
1
 40
1
 10
137.621060
 20
36.066463
 30
0.0
 10
131.690157
 20
37.852291
 30
0.0
 10
124.563032
 20
44.963286
 30
0.0
 10
121.983673
 20
51.668473
 30
0.0
  0
SPLINE
  5
107
100
AcDbEntity
  8
Layer_1
 62
7
100
AcDbSpline
 70
8
 71
3
 72
8
 73
4
 74
0
 40
0
 40
0
 40
0
 40
0
 40
1
 40
1
 40
1
 40
1
 10
121.983673
 20
51.668473
 30
0.0
 10
119.972917
 20
56.895562
 30
0.0
 10
119.242853
 20
66.822071
 30
0.0
 10
120.501522
 20
71.820800
 30
0.0
  0
SPLINE
  5
108
100
AcDbEntity
  8
Layer_1
 62
7
100
AcDbSpline
 70
8
 71
3
 72
8
 73
4
 74
0
 40
0
 40
0
 40
0
 40
0
 40
1
 40
1
 40
1
 40
1
 10
120.501522
 20
71.820800
 30
0.0
 10
123.797791
 20
84.911370
 30
0.0
 10
132.692091
 20
92.586120
 30
0.0
 10
144.548030
 20
92.570076
 30
0.0
  0
SPLINE
  5
109
100
AcDbEntity
  8
Layer_1
 62
7
100
AcDbSpline
 70
8
 71
3
 72
8
 73
4
 74
0
 40
0
 40
0
 40
0
 40
0
 40
1
 40
1
 40
1
 40
1
 10
144.548030
 20
92.570076
 30
0.0
 10
151.836162
 20
92.561572
 30
0.0
 10
156.740073
 20
90.498572
 30
0.0
 10
161.448308
 20
85.465090
 30
0.0
  0
SPLINE
  5
10a
100
AcDbEntity
  8
Layer_1
 62
7
100
AcDbSpline
 70
8
 71
3
 72
8
 73
4
 74
0
 40
0
 40
0
 40
0
 40
0
 40
1
 40
1
 40
1
 40
1
 10
161.448308
 20
85.465090
 30
0.0
 10
170.401597
 20
75.893309
 30
0.0
 10
172.097708
 20
61.442563
 30
0.0
 10
165.746795
 20
48.842387
 30
0.0
  0
SPLINE
  5
10b
100
AcDbEntity
  8
Layer_1
 62
7
100
AcDbSpline
 70
8
 71
3
 72
8
 73
4
 74
0
 40
0
 40
0
 40
0
 40
0
 40
1
 40
1
 40
1
 40
1
 10
165.746795
 20
48.842387
 30
0.0
 10
162.498573
 20
42.397930
 30
0.0
 10
157.837308
 20
38.272839
 30
0.0
 10
151.724421
 20
36.432926
 30
0.0
  0
SPLINE
  5
10c
100
AcDbEntity
  8
Layer_1
 62
7
100
AcDbSpline
 70
8
 71
3
 72
8
 73
4
 74
0
 40
0
 40
0
 40
0
 40
0
 40
1
 40
1
 40
1
 40
1
 10
151.724421
 20
36.432926
 30
0.0
 10
147.755036
 20
35.238179
 30
0.0
 10
140.958375
 20
35.061581
 30
0.0
 10
137.621060
 20
36.066463
 30
0.0
  0
LWPOLYLINE
  5
10d
100
AcDbEntity
  8
Layer_1
 62
7
100
AcDbPolyline
 90
1
 70
1
 10
152.960468
 20
21.413266
 30
0.0
  0
SPLINE
  5
10e
100
AcDbEntity
  8
Layer_1
 62
7
100
AcDbSpline
 70
8
 71
3
 72
8
 73
4
 74
0
 40
0
 40
0
 40
0
 40
0
 40
1
 40
1
 40
1
 40
1
 10
71.363059
 20
73.505233
 30
0.0
 10
79.966240
 20
76.550125
 30
0.0
 10
88.451643
 20
82.990386
 30
0.0
 10
91.352734
 20
88.677000
 30
0.0
  0
LWPOLYLINE
  5
10f
100
AcDbEntity
  8
Layer_1
 62
7
100
AcDbPolyline
 90
1
 70
1
 10
137.621060
 20
36.066463
 30
0.0
  0
SPLINE
  5
110
100
AcDbEntity
  8
Layer_1
 62
7
100
AcDbSpline
 70
8
 71
3
 72
8
 73
4
 74
0
 40
0
 40
0
 40
0
 40
0
 40
1
 40
1
 40
1
 40
1
 10
86.969236
 20
94.839041
 30
0.0
 10
78.928079
 20
99.545943
 30
0.0
 10
78.845336
 20
99.565502
 30
0.0
 10
77.537685
 20
97.067980
 30
0.0
  0
SPLINE
  5
111
100
AcDbEntity
  8
Layer_1
 62
7
100
AcDbSpline
 70
8
 71
3
 72
8
 73
4
 74
0
 40
0
 40
0
 40
0
 40
0
 40
1
 40
1
 40
1
 40
1
 10
77.537685
 20
97.067980
 30
0.0
 10
75.852743
 20
93.849890
 30
0.0
 10
71.850051
 20
90.342639
 30
0.0
 10
67.673000
 20
88.424405
 30
0.0
  0
SPLINE
  5
112
100
AcDbEntity
  8
Layer_1
 62
7
100
AcDbSpline
 70
8
 71
3
 72
8
 73
4
 74
0
 40
0
 40
0
 40
0
 40
0
 40
1
 40
1
 40
1
 40
1
 10
67.673000
 20
88.424405
 30
0.0
 10
64.647440
 20
87.034974
 30
0.0
 10
62.618995
 20
86.701563
 30
0.0
 10
57.172986
 20
86.698501
 30
0.0
  0
SPLINE
  5
113
100
AcDbEntity
  8
Layer_1
 62
7
100
AcDbSpline
 70
8
 71
3
 72
8
 73
4
 74
0
 40
0
 40
0
 40
0
 40
0
 40
1
 40
1
 40
1
 40
1
 10
57.172986
 20
86.698501
 30
0.0
 10
51.207670
 20
86.695667
 30
0.0
 10
50.027663
 20
86.926974
 30
0.0
 10
47.022172
 20
88.694065
 30
0.0
  0
SPLINE
  5
114
100
AcDbEntity
  8
Layer_1
 62
7
100
AcDbSpline
 70
8
 71
3
 72
8
 73
4
 74
0
 40
0
 40
0
 40
0
 40
0
 40
1
 40
1
 40
1
 40
1
 10
47.022172
 20
88.694065
 30
0.0
 10
37.701598
 20
94.173692
 30
0.0
 10
32.079303
 20
104.452235
 30
0.0
 10
32.056880
 20
116.053198
 30
0.0
  0
SPLINE
  5
115
100
AcDbEntity
  8
Layer_1
 62
7
100
AcDbSpline
 70
8
 71
3
 72
8
 73
4
 74
0
 40
0
 40
0
 40
0
 40
0
 40
1
 40
1
 40
1
 40
1
 10
32.056880
 20
116.053198
 30
0.0
 10
32.039873
 20
125.090109
 30
0.0
 10
36.591125
 20
135.161326
 30
0.0
 10
42.699421
 20
139.601092
 30
0.0
  0
SPLINE
  5
116
100
AcDbEntity
  8
Layer_1
 62
7
100
AcDbSpline
 70
8
 71
3
 72
8
 73
4
 74
0
 40
0
 40
0
 40
0
 40
0
 40
1
 40
1
 40
1
 40
1
 10
42.699421
 20
139.601092
 30
0.0
 10
47.886258
 20
143.371116
 30
0.0
 10
50.629034
 20
144.264426
 30
0.0
 10
57.172986
 20
144.315025
 30
0.0
  0
SPLINE
  5
117
100
AcDbEntity
  8
Layer_1
 62
7
100
AcDbSpline
 70
8
 71
3
 72
8
 73
4
 74
0
 40
0
 40
0
 40
0
 40
0
 40
1
 40
1
 40
1
 40
1
 10
57.172986
 20
144.315025
 30
0.0
 10
62.082425
 20
144.353009
 30
0.0
 10
63.931833
 20
144.013107
 30
0.0
 10
67.347923
 20
142.445037
 30
0.0
  0
SPLINE
  5
118
100
AcDbEntity
  8
Layer_1
 62
7
100
AcDbSpline
 70
8
 71
3
 72
8
 73
4
 74
0
 40
0
 40
0
 40
0
 40
0
 40
1
 40
1
 40
1
 40
1
 10
67.347923
 20
142.445037
 30
0.0
 10
71.601991
 20
140.492333
 30
0.0
 10
76.647096
 20
136.014357
 30
0.0
 10
77.452702
 20
133.476129
 30
0.0
  0
SPLINE
  5
119
100
AcDbEntity
  8
Layer_1
 62
7
100
AcDbSpline
 70
8
 71
3
 72
8
 73
4
 74
0
 40
0
 40
0
 40
0
 40
0
 40
1
 40
1
 40
1
 40
1
 10
77.452702
 20
133.476129
 30
0.0
 10
77.698183
 20
132.702610
 30
0.0
 10
78.186933
 20
132.069719
 30
0.0
 10
78.538741
 20
132.069719
 30
0.0
  0
SPLINE
  5
11a
100
AcDbEntity
  8
Layer_1
 62
7
100
AcDbSpline
 70
8
 71
3
 72
8
 73
4
 74
0
 40
0
 40
0
 40
0
 40
0
 40
1
 40
1
 40
1
 40
1
 10
78.538741
 20
132.069719
 30
0.0
 10
79.504391
 20
132.069719
 30
0.0
 10
91.297997
 20
140.330135
 30
0.0
 10
91.297997
 20
141.006482
 30
0.0
  0
SPLINE
  5
11b
100
AcDbEntity
  8
Layer_1
 62
7
100
AcDbSpline
 70
8
 71
3
 72
8
 73
4
 74
0
 40
0
 40
0
 40
0
 40
0
 40
1
 40
1
 40
1
 40
1
 10
91.297997
 20
141.006482
 30
0.0
 10
91.297997
 20
142.198366
 30
0.0
 10
86.925044
 20
147.580425
 30
0.0
 10
83.524800
 20
150.573443
 30
0.0
  0
SPLINE
  5
11c
100
AcDbEntity
  8
Layer_1
 62
7
100
AcDbSpline
 70
8
 71
3
 72
8
 73
4
 74
0
 40
0
 40
0
 40
0
 40
0
 40
1
 40
1
 40
1
 40
1
 10
83.524800
 20
150.573443
 30
0.0
 10
72.105283
 20
160.625300
 30
0.0
 10
53.317611
 20
162.537609
 30
0.0
 10
38.280631
 20
155.178639
 30
0.0
  0
SPLINE
  5
11d
100
AcDbEntity
  8
Layer_1
 62
7
100
AcDbSpline
 70
8
 71
3
 72
8
 73
4
 74
0
 40
0
 40
0
 40
0
 40
0
 40
1
 40
1
 40
1
 40
1
 10
38.280631
 20
155.178639
 30
0.0
 10
31.800232
 20
152.007208
 30
0.0
 10
23.534146
 20
143.955818
 30
0.0
 10
20.187193
 20
137.555186
 30
0.0
  0
SPLINE
  5
11e
100
AcDbEntity
  8
Layer_1
 62
7
100
AcDbSpline
 70
8
 71
3
 72
8
 73
4
 74
0
 40
0
 40
0
 40
0
 40
0
 40
1
 40
1
 40
1
 40
1
 10
20.187193
 20
137.555186
 30
0.0
 10
10.446921
 20
118.928210
 30
0.0
 10
14.448139
 20
96.321788
 30
0.0
 10
30.001223
 20
82.107139
 30
0.0
  0
SPLINE
  5
11f
100
AcDbEntity
  8
Layer_1
 62
7
100
AcDbSpline
 70
8
 71
3
 72
8
 73
4
 74
0
 40
0
 40
0
 40
0
 40
0
 40
1
 40
1
 40
1
 40
1
 10
30.001223
 20
82.107139
 30
0.0
 10
34.451363
 20
78.039987
 30
0.0
 10
41.663896
 20
73.897151
 30
0.0
 10
46.981864
 20
72.353516
 30
0.0
  0
SPLINE
  5
120
100
AcDbEntity
  8
Layer_1
 62
7
100
AcDbSpline
 70
8
 71
3
 72
8
 73
4
 74
0
 40
0
 40
0
 40
0
 40
0
 40
1
 40
1
 40
1
 40
1
 10
46.981864
 20
72.353516
 30
0.0
 10
52.113283
 20
70.864050
 30
0.0
 10
65.716130
 20
71.506608
 30
0.0
 10
71.363059
 20
73.505233
 30
0.0
  0
LWPOLYLINE
  5
121
100
AcDbEntity
  8
Layer_1
 62
7
100
AcDbPolyline
 90
3
 70
0
 10
91.352734
 20
88.677000
 30
0.0
 10
92.765493
 20
91.446195
 30
0.0
 10
86.969236
 20
94.839041
 30
0.0
  0
SPLINE
  5
122
100
AcDbEntity
  8
Layer_1
 62
7
100
AcDbSpline
 70
8
 71
3
 72
8
 73
4
 74
0
 40
0
 40
0
 40
0
 40
0
 40
1
 40
1
 40
1
 40
1
 10
211.573087
 20
109.757220
 30
0.0
 10
199.488448
 20
122.737947
 30
0.0
 10
141.799358
 20
182.694755
 30
0.0
 10
141.394230
 20
182.694755
 30
0.0
  0
SPLINE
  5
123
100
AcDbEntity
  8
Layer_1
 62
7
100
AcDbSpline
 70
8
 71
3
 72
8
 73
4
 74
0
 40
0
 40
0
 40
0
 40
0
 40
1
 40
1
 40
1
 40
1
 10
141.394230
 20
182.694755
 30
0.0
 10
140.727493
 20
182.694755
 30
0.0
 10
75.437070
 20
108.680650
 30
0.0
 10
75.791316
 20
108.326404
 30
0.0
  0
SPLINE
  5
124
100
AcDbEntity
  8
Layer_1
 62
7
100
AcDbSpline
 70
8
 71
3
 72
8
 73
4
 74
0
 40
0
 40
0
 40
0
 40
0
 40
1
 40
1
 40
1
 40
1
 10
75.791316
 20
108.326404
 30
0.0
 10
75.934749
 20
108.182971
 30
0.0
 10
80.073107
 20
109.919646
 30
0.0
 10
84.987591
 20
112.185776
 30
0.0
  0
SPLINE
  5
125
100
AcDbEntity
  8
Layer_1
 62
7
100
AcDbSpline
 70
8
 71
3
 72
8
 73
4
 74
0
 40
0
 40
0
 40
0
 40
0
 40
1
 40
1
 40
1
 40
1
 10
84.987591
 20
112.185776
 30
0.0
 10
89.902075
 20
114.451934
 30
0.0
 10
94.287189
 20
116.309110
 30
0.0
 10
94.732313
 20
116.312880
 30
0.0
  0
SPLINE
  5
126
100
AcDbEntity
  8
Layer_1
 62
7
100
AcDbSpline
 70
8
 71
3
 72
8
 73
4
 74
0
 40
0
 40
0
 40
0
 40
0
 40
1
 40
1
 40
1
 40
1
 10
94.732313
 20
116.312880
 30
0.0
 10
95.177409
 20
116.315715
 30
0.0
 10
96.331990
 20
114.632218
 30
0.0
 10
97.298009
 20
112.569700
 30
0.0
  0
SPLINE
  5
127
100
AcDbEntity
  8
Layer_1
 62
7
100
AcDbSpline
 70
8
 71
3
 72
8
 73
4
 74
0
 40
0
 40
0
 40
0
 40
0
 40
1
 40
1
 40
1
 40
1
 10
97.298009
 20
112.569700
 30
0.0
 10
98.264028
 20
110.507211
 30
0.0
 10
99.249833
 20
108.834316
 30
0.0
 10
99.488709
 20
108.852174
 30
0.0
  0
SPLINE
  5
128
100
AcDbEntity
  8
Layer_1
 62
7
100
AcDbSpline
 70
8
 71
3
 72
8
 73
4
 74
0
 40
0
 40
0
 40
0
 40
0
 40
1
 40
1
 40
1
 40
1
 10
99.488709
 20
108.852174
 30
0.0
 10
99.727670
 20
108.869182
 30
0.0
 10
103.804261
 20
112.564003
 30
0.0
 10
108.548014
 20
117.061028
 30
0.0
  0
LWPOLYLINE
  5
129
100
AcDbEntity
  8
Layer_1
 62
7
100
AcDbPolyline
 90
1
 70
1
 10
71.363059
 20
73.505233
 30
0.0
  0
SPLINE
  5
12a
100
AcDbEntity
  8
Layer_1
 62
7
100
AcDbSpline
 70
8
 71
3
 72
8
 73
4
 74
0
 40
0
 40
0
 40
0
 40
0
 40
1
 40
1
 40
1
 40
1
 10
191.701503
 20
110.971101
 30
0.0
 10
195.506109
 20
111.701788
 30
0.0
 10
196.700828
 20
111.566746
 30
0.0
 10
203.798047
 20
109.603753
 30
0.0
  0
SPLINE
  5
12b
100
AcDbEntity
  8
Layer_1
 62
7
100
AcDbSpline
 70
8
 71
3
 72
8
 73
4
 74
0
 40
0
 40
0
 40
0
 40
0
 40
1
 40
1
 40
1
 40
1
 10
203.798047
 20
109.603753
 30
0.0
 10
213.978596
 20
106.787984
 30
0.0
 10
214.330858
 20
106.794929
 30
0.0
 10
211.573087
 20
109.757107
 30
0.0
  0
LWPOLYLINE
  5
12c
100
AcDbEntity
  8
Layer_1
 62
7
100
AcDbPolyline
 90
13
 70
0
 10
108.548014
 20
117.061028
 30
0.0
 10
117.173022
 20
125.237454
 30
0.0
 10
121.843047
 20
120.630076
 30
0.0
 10
126.513071
 20
116.022697
 30
0.0
 10
133.843043
 20
117.528036
 30
0.0
 10
141.173014
 20
119.033404
 30
0.0
 10
147.787011
 20
116.034943
 30
0.0
 10
154.401008
 20
113.036482
 30
0.0
 10
160.685732
 20
116.153403
 30
0.0
 10
166.970427
 20
119.270296
 30
0.0
 10
177.225188
 20
114.715301
 30
0.0
 10
187.479948
 20
110.160336
 30
0.0
 10
191.701503
 20
110.971101
 30
0.0
  0
LWPOLYLINE
  5
12d
100
AcDbEntity
  8
Layer_1
 62
7
100
AcDbPolyline
 90
2
 70
0
 10
211.573087
 20
109.757107
 30
0.0
 10
211.573087
 20
109.757220
 30
0.0
  0
SPLINE
  5
12e
100
AcDbEntity
  8
Layer_1
 62
7
100
AcDbSpline
 70
8
 71
3
 72
8
 73
4
 74
0
 40
0
 40
0
 40
0
 40
0
 40
1
 40
1
 40
1
 40
1
 10
146.020204
 20
149.548804
 30
0.0
 10
145.314887
 20
148.391559
 30
0.0
 10
143.275585
 20
144.913476
 30
0.0
 10
141.488397
 20
141.819713
 30
0.0
  0
LWPOLYLINE
  5
12f
100
AcDbEntity
  8
Layer_1
 62
7
100
AcDbPolyline
 90
3
 70
0
 10
155.487811
 20
143.089749
 30
0.0
 10
147.302570
 20
151.652877
 30
0.0
 10
146.020204
 20
149.548804
 30
0.0
  0
SPLINE
  5
130
100
AcDbEntity
  8
Layer_1
 62
7
100
AcDbSpline
 70
8
 71
3
 72
8
 73
4
 74
0
 40
0
 40
0
 40
0
 40
0
 40
1
 40
1
 40
1
 40
1
 10
137.604817
 20
139.569712
 30
0.0
 10
136.575982
 20
145.045372
 30
0.0
 10
136.469428
 20
145.207343
 30
0.0
 10
134.856854
 20
143.747954
 30
0.0
  0
SPLINE
  5
131
100
AcDbEntity
  8
Layer_1
 62
7
100
AcDbSpline
 70
8
 71
3
 72
8
 73
4
 74
0
 40
0
 40
0
 40
0
 40
0
 40
1
 40
1
 40
1
 40
1
 10
134.856854
 20
143.747954
 30
0.0
 10
133.205360
 20
142.253386
 30
0.0
 10
132.900126
 20
142.612593
 30
0.0
 10
132.193618
 20
146.882223
 30
0.0
  0
SPLINE
  5
132
100
AcDbEntity
  8
Layer_1
 62
7
100
AcDbSpline
 70
8
 71
3
 72
8
 73
4
 74
0
 40
0
 40
0
 40
0
 40
0
 40
1
 40
1
 40
1
 40
1
 10
132.193618
 20
146.882223
 30
0.0
 10
131.903520
 20
148.635339
 30
0.0
 10
131.387785
 20
150.069727
 30
0.0
 10
131.047485
 20
150.069727
 30
0.0
  0
SPLINE
  5
133
100
AcDbEntity
  8
Layer_1
 62
7
100
AcDbSpline
 70
8
 71
3
 72
8
 73
4
 74
0
 40
0
 40
0
 40
0
 40
0
 40
1
 40
1
 40
1
 40
1
 10
131.047485
 20
150.069727
 30
0.0
 10
130.707214
 20
150.069727
 30
0.0
 10
128.380848
 20
147.791606
 30
0.0
 10
125.877770
 20
145.007217
 30
0.0
  0
LWPOLYLINE
  5
134
100
AcDbEntity
  8
Layer_1
 62
7
100
AcDbPolyline
 90
3
 70
0
 10
141.488397
 20
141.819713
 30
0.0
 10
138.238956
 20
136.194725
 30
0.0
 10
137.604817
 20
139.569712
 30
0.0
  0
SPLINE
  5
135
100
AcDbEntity
  8
Layer_1
 62
7
100
AcDbSpline
 70
8
 71
3
 72
8
 73
4
 74
0
 40
0
 40
0
 40
0
 40
0
 40
1
 40
1
 40
1
 40
1
 10
121.312542
 20
144.632222
 30
0.0
 10
121.304038
 20
147.210362
 30
0.0
 10
121.170527
 20
149.319736
 30
0.0
 10
121.014763
 20
149.319736
 30
0.0
  0
SPLINE
  5
136
100
AcDbEntity
  8
Layer_1
 62
7
100
AcDbSpline
 70
8
 71
3
 72
8
 73
4
 74
0
 40
0
 40
0
 40
0
 40
0
 40
1
 40
1
 40
1
 40
1
 10
121.014763
 20
149.319736
 30
0.0
 10
120.858857
 20
149.319736
 30
0.0
 10
119.467102
 20
148.791499
 30
0.0
 10
117.921908
 20
148.145852
 30
0.0
  0
LWPOLYLINE
  5
137
100
AcDbEntity
  8
Layer_1
 62
7
100
AcDbPolyline
 90
3
 70
0
 10
125.877770
 20
145.007217
 30
0.0
 10
121.326716
 20
139.944736
 30
0.0
 10
121.312542
 20
144.632222
 30
0.0
  0
SPLINE
  5
138
100
AcDbEntity
  8
Layer_1
 62
7
100
AcDbSpline
 70
8
 71
3
 72
8
 73
4
 74
0
 40
0
 40
0
 40
0
 40
0
 40
1
 40
1
 40
1
 40
1
 10
116.517794
 20
148.744331
 30
0.0
 10
117.290745
 20
149.719138
 30
0.0
 10
123.147665
 20
156.491421
 30
0.0
 10
129.533132
 20
163.793868
 30
0.0
  0
LWPOLYLINE
  5
139
100
AcDbEntity
  8
Layer_1
 62
7
100
AcDbPolyline
 90
3
 70
0
 10
117.921908
 20
148.145852
 30
0.0
 10
115.112433
 20
146.971996
 30
0.0
 10
116.517794
 20
148.744331
 30
0.0
  0
SPLINE
  5
13a
100
AcDbEntity
  8
Layer_1
 62
7
100
AcDbSpline
 70
8
 71
3
 72
8
 73
4
 74
0
 40
0
 40
0
 40
0
 40
0
 40
1
 40
1
 40
1
 40
1
 10
143.095132
 20
175.007873
 30
0.0
 10
144.168783
 20
173.873164
 30
0.0
 10
151.560011
 20
166.097926
 30
0.0
 10
159.520097
 20
157.729623
 30
0.0
  0
SPLINE
  5
13b
100
AcDbEntity
  8
Layer_1
 62
7
100
AcDbSpline
 70
8
 71
3
 72
8
 73
4
 74
0
 40
0
 40
0
 40
0
 40
0
 40
1
 40
1
 40
1
 40
1
 10
159.520097
 20
157.729623
 30
0.0
 10
167.480182
 20
149.361292
 30
0.0
 10
173.864771
 20
142.388514
 30
0.0
 10
173.708100
 20
142.234507
 30
0.0
  0
SPLINE
  5
13c
100
AcDbEntity
  8
Layer_1
 62
7
100
AcDbSpline
 70
8
 71
3
 72
8
 73
4
 74
0
 40
0
 40
0
 40
0
 40
0
 40
1
 40
1
 40
1
 40
1
 10
173.708100
 20
142.234507
 30
0.0
 10
173.551344
 20
142.080586
 30
0.0
 10
170.723217
 20
143.624193
 30
0.0
 10
167.423206
 20
145.664884
 30
0.0
  0
SPLINE
  5
13d
100
AcDbEntity
  8
Layer_1
 62
7
100
AcDbSpline
 70
8
 71
3
 72
8
 73
4
 74
0
 40
0
 40
0
 40
0
 40
0
 40
1
 40
1
 40
1
 40
1
 10
167.423206
 20
145.664884
 30
0.0
 10
163.369802
 20
148.171477
 30
0.0
 10
161.354141
 20
149.051125
 30
0.0
 10
161.210311
 20
148.376252
 30
0.0
  0
SPLINE
  5
13e
100
AcDbEntity
  8
Layer_1
 62
7
100
AcDbSpline
 70
8
 71
3
 72
8
 73
4
 74
0
 40
0
 40
0
 40
0
 40
0
 40
1
 40
1
 40
1
 40
1
 10
161.210311
 20
148.376252
 30
0.0
 10
161.093241
 20
147.826812
 30
0.0
 10
161.674513
 20
144.542477
 30
0.0
 10
162.502060
 20
141.077716
 30
0.0
  0
SPLINE
  5
13f
100
AcDbEntity
  8
Layer_1
 62
7
100
AcDbSpline
 70
8
 71
3
 72
8
 73
4
 74
0
 40
0
 40
0
 40
0
 40
0
 40
1
 40
1
 40
1
 40
1
 10
162.502060
 20
141.077716
 30
0.0
 10
163.329579
 20
137.612956
 30
0.0
 10
163.931629
 20
134.721587
 30
0.0
 10
163.839928
 20
134.652394
 30
0.0
  0
SPLINE
  5
140
100
AcDbEntity
  8
Layer_1
 62
7
100
AcDbSpline
 70
8
 71
3
 72
8
 73
4
 74
0
 40
0
 40
0
 40
0
 40
0
 40
1
 40
1
 40
1
 40
1
 10
163.839928
 20
134.652394
 30
0.0
 10
163.748086
 20
134.583228
 30
0.0
 10
159.989854
 20
138.380040
 30
0.0
 10
155.487981
 20
143.089749
 30
0.0
  0
LWPOLYLINE
  5
141
100
AcDbEntity
  8
Layer_1
 62
7
100
AcDbPolyline
 90
3
 70
0
 10
129.533132
 20
163.793868
 30
0.0
 10
141.143052
 20
177.071043
 30
0.0
 10
143.095132
 20
175.007873
 30
0.0
  0
LWPOLYLINE
  5
142
100
AcDbEntity
  8
Layer_1
 62
7
100
AcDbPolyline
 90
2
 70
0
 10
155.487981
 20
143.089749
 30
0.0
 10
155.487811
 20
143.089749
 30
0.0
  0
ENDSEC
  0
SECTION
  2
OBJECTS
  0
DICTIONARY
  5
C
330
0
100
AcDbDictionary
  3
ACAD_GROUP
350
D
  3
ACAD_MLINESTYLE
350
17
  0
DICTIONARY
  5
D
330
C
100
AcDbDictionary
  0
DICTIONARY
  5
1A
330
C
100
AcDbDictionary
  0
DICTIONARY
  5
17
330
C
100
AcDbDictionary
  3
STANDARD
350
18
  0
DICTIONARY
  5
19
330
C
100
AcDbDictionary
  0
ENDSEC
  0
EOF
